Marie, partition piano

Voir le sujet précédent Voir le sujet suivant Aller en bas

Marie, partition piano

Message  Hallyday Tour Fan le Mer 28 Oct - 15:31

Bonjour !
J'expédie un peu mon post, mais j'aurais un peu urgent de la partition (donc piano) de Marie. Que ce soit par le biais d'un lien ou d'un scan.

Merci d'avance
avatar
Hallyday Tour Fan

Messages : 1622
Date d'inscription : 21/02/2008
Age : 25
Localisation : Rouen

Voir le profil de l'utilisateur http://lightnin-band.over-blog.com/

Revenir en haut Aller en bas

Re: Marie, partition piano

Message  Anthony le Mer 28 Oct - 18:42

Oh Marie si tu savais
Tout le mal que l'on me fait
la la la la la la la
la la la la la la la la .......

désolé j'ai pas mieux..
avatar
Anthony

Messages : 2924
Date d'inscription : 26/06/2009
Age : 48
Localisation : Poitou-Charentes

Voir le profil de l'utilisateur

Revenir en haut Aller en bas

Re: Marie, partition piano

Message  Invité le Mer 28 Oct - 18:50

Il me semble que c'est la partition guitare:


|-0-------------------|-0-------------------|-0------------------|-----------------------

|----1--0-----1--0----|----1--0-----1--0----|----1--0--0--0----1-|-------1--0--0--1--0---

|----------0--------2-|----------0--------2-|----------------2---|-0--0-----------------2

|---------------------|---------------------|--------------------|-----------------------

|---------------------|---------------------|--------------------|-----------------------

|---------------------|---------------------|--------------------|-----------------------



|0---------------------------------------------|0--------------------------------------------|

|---1--0----------------------1--0--0--1--0----|--1--0---0---0----1----------1--0--0--1--0---|

|--------0--0--2--2--2--2--2-----------------2-|---------------2----0--0--0-----------------2|

|----------------------------------------------|---------------------------------------------|

|----------------------------------------------|---------------------------------------------|

|----------------------------------------------|---------------------------------------------|

Invité
Invité


Revenir en haut Aller en bas

Re: Marie, partition piano

Message  Invité le Mer 28 Oct - 19:40

H T F ? le mieux c'est que tu répétes une autre chanson a la place !

Tu as l'embarras du choix !

Invité
Invité


Revenir en haut Aller en bas

Re: Marie, partition piano

Message  Hallyday Tour Fan le Jeu 29 Oct - 1:34

Merci du conseil, mais c'est pour un cours de musique donc pas l'choix
avatar
Hallyday Tour Fan

Messages : 1622
Date d'inscription : 21/02/2008
Age : 25
Localisation : Rouen

Voir le profil de l'utilisateur http://lightnin-band.over-blog.com/

Revenir en haut Aller en bas

Re: Marie, partition piano

Message  johnny21 le Jeu 29 Oct - 7:20

le mieux ,tu va a la fnac et tu prend en photo la chanson ds les livres a vendre et tu la recopie
avatar
johnny21

Messages : 177
Date d'inscription : 06/06/2009
Age : 56
Localisation : bourgogne

Voir le profil de l'utilisateur

Revenir en haut Aller en bas

Re: Marie, partition piano

Message  Contenu sponsorisé


Contenu sponsorisé


Revenir en haut Aller en bas

Voir le sujet précédent Voir le sujet suivant Revenir en haut


 
Permission de ce forum:
Vous ne pouvez pas répondre aux sujets dans ce forum